HomeHome  PortalPortal  CalendarCalendar  GalleryGallery  FAQFAQ  SearchSearch  MemberlistMemberlist  UsergroupsUsergroups  RegisterRegister  Log inLog in  

Share | 
 

 Kaki King - Ritual Dance (tabulasi)

View previous topic View next topic Go down 
AuthorMessage
Akhnukh
Moderator
Moderator


Jumlah posting : 167 Age : 26
Lokasi : bengkulu

PostSubject: Kaki King - Ritual Dance (tabulasi)   Fri Nov 19, 2010 11:37 am

cuma mau share nih... untuk yg hobi main gitar... :alatmusik3:
beberapa waktu yg lalu saya dapet tabulasi dari lagu Kaki king - Ritual dance yg menjadi soundtrack filem August Rust...
:alatmusik3::alatmusik3::alatmusik3::alatmusik3:



Tuning: DADGCC

/ or \ Slide
h Hammer on
p Pull off
~ vibrato
x mute (also used it for the drum part at the end)
T Right hand tapping |
L Left hand tapping | located above
S Slap above fretboard or soundhole | tablature staff
ss Slap below fretboard or soundhole |
( ) Natural harmonics
S and () Slap harmonics with right hand



Intro Riff:

Let ring-------------| Let ring--------------------| Let ring
S S
C|--(5)--------------------------(12)------------------------------(5)-|
C|--(5)--------------------------(12)------------------------------(5)-|
G|--(5)--------------------------(12)------------------------------(5)-|
D|--(5)--0h3-3-3-3/5-5-5-5-5p0---(12)--0-0-0h3-3-3-3/5-5-5-5-5p0---(5)-|
A|--(5)--0h3-3-3-3/5-5-5-5-5p0---(12)--0-0-0h3-3-3-3/5-5-5-5-5p0---(5)-|
D|--(5)--0h3-3-3-3/5-5-5-5-5p0---(12)--0-0-0h3-3-3-3/5-5-5-5-5p0---(5)-|


---------------------| Let ring----------|
S
C|------------------------------(12)---------------------------||
C|------------------------------(12)---------------------------||
G|------------------------------(12)--------------------0------||
D|--0-0-0h3-3-3-3/5-5-5-5-5p0---(12)--0-0-0h3-3-3-3/5-5-0------||
A|--0-0-0h3-3-3-3/5-5-5-5-5p0---(12)--0-0-0h3-3-3-3/5-5-0------||
D|--0-0-0h3-3-3-3/5-5-5-5-5p0---(12)--0-0-0h3-3-3-3/5-5-0------||


Riff 2 (play 2x):

Let ring ----------|
C||--2-2/5-5-5-/7-0-------x-0------------||
C||--2-2/5-5-5-/7-0-------2-0------------||
G||o-2-2/5-5-5-/7-0-------2-0-----------o|| x2
D||o--------------0-3-3-3-3-3-3--/5-0---o||
A||---------------0-3-3-3-3-3-3--/5-0----||
D||---------------0-3-3-3-3-3-3--/5-0----||


Let ring-----|
C|-9-9-12-12-x-x-4--4-4-4-4-------------0--0-0--2-------------||
C|-9-9-12-12-x-x-4--4-4-4-4-------------0--0-0--2-------------||
G|-9-9-12-12-x-x-2--2-2-2-2--0-7--7-7-7-7--0-0--2-------------||
D|---------------2--2-2-2-2--0-8--8-8-8-8---------0-0-0-0-0-0-||
A|---------------------------0-8--8-8-8-8---------0-0-0-0-0-0-||
D|---------------------------0-8--8-8-8-8---------0-0-0-0-0-0-||


Riff 3:


C||-5-x-4-x-2-x-0------------------------------x--------------|
C||-5-x-4-x-2-x-0--------------0---------------2----------2p0-|
G||-7-x-5-x-2-x-0-2--2-2-2p0-0-0---2-2-2-2p0-0-2--2-2-2-2-2p0-|
D||-------------3-3--3-3-3---3-3---3-3-3-3---3-3--0-0-0-0-0---|
A||-------------3-3--3-3-3---3-3---3-3-3-3---3-3--0-0-0-0-0---|
D||-------------3-3--3-3-3---3-3---3-3-3-3---3-3--0-0-0-0-0---|

Let ring-------------|
C|-5-x-4-x-2-x-0--------------------------------------------------------||
C|-5-x-4-x-2-x-0--------------0-----------------------------------------||
G|-7-x-5-x-2-x-0-2--2-2-2p0-0-0---2-2-2-2p0-0-2--2--/5~~~~/7~~~~--------||
D|-------------3-3--3-3-3---3-3---3-3-3-3---3-3--0-0-0-0-0-0-0-0-0-0-0--||
A|-------------3-3--3-3-3---3-3---3-3-3-3---3-3--0-0-0-0-0-0-0-0-0-0-0--||
D|-------------3-3--3-3-3---3-3---3-3-3-3---3-3--0-0-0-0-0-0-0-0-0-0-0--||


Riff 4:

Let ring------| Let ring-----|
C||-------------------0----------------------------0----------|
C||-------------------0----------------------------0----------|
G||-----------------------4---------------------------4-------|
D||-1-1-1-1-3-3-3-3-5---------5--1-1-1-1-3-3-3-3-5-------5----|
A||-1-1-1-1-3-3-3-3-5------------1-1-1-1-3-3-3-3-5------------|
D||-1-1-1-1-3-3-3-3-5------------1-1-1-1-3-3-3-3-5------------|


Let ring------|
C|-------------------0---------------0-0-0-0-0-0--||
C|-------------------0---------------0-0-0-0-0-0--||
G|-----------------------4-----------0-0-0-0-0-0--||
D|-1-1-1-1-3-3-3-3-5---------5---x-x-7-7-7-7-7-7--||
A|-1-1-1-1-3-3-3-3-5-------------x-x-7-7-7-7-7-7--||
D|-1-1-1-1-3-3-3-3-5-------------x-x-7-7-7-7-7-7--||


Riff 5 (Riff 2 modified/tapped):


Let ring----------------------------------------------------------

L T T L T L T ss L T T L T L T ss
C|--2p0-5p0-7p0--------------------2p0-5p0-7p0---------------------|
C|--2p0-5p0-7p0--------------------2p0-5p0-7p0---------------------|
G|--2p0-5p0-7p0--------------------2p0-5p0-7p0---------------------|
D|------------------7p0----------------------------7p0-------------|
A|-----------------------------------------------------------------|
D|--------------3p0-----7p0-12p0---------------3p0-----7p0-12p0----|


---------|

T T Let ring-----|
C|-9p0-12p0-4--4-4-4-4--5-x-4-x-2-x-0-x-2-------------|
C|-9p0-12p0-4--4-4-4-4--5-x-4-x-2-x-0-x-2-------------|
G|-9p0-12p0-2--2-2-2-2--7-x-5-x-2-x-0-x-2-------------|
D|----------2--2-2-2-2--------------------0-0-0-0-0-0-|
A|----------------------------------------0-0-0-0-0-0-|
D|----------------------------------------0-0-0-0-0-0-|


Let ring----------------------------------------------------------

L T T L T L T ss L T T L T L T ss
C|--2p0-5p0-7p0--------------------2p0-5p0-7p0---------------------|
C|--2p0-5p0-7p0--------------------2p0-5p0-7p0---------------------|
G|--2p0-5p0-7p0--------------------2p0-5p0-7p0---------------------|
D|------------------7p0----------------------------7p0-------------|
A|-----------------------------------------------------------------|
D|--------------3p0-----7p0-12p0---------------3p0-----7p0-12p0----|


---------|

T T Let ring-----|
C|-9p0-12p0-4--4-4-4-4--5-x-7-x-9-x-12-x-14-------------|
C|-9p0-12p0-4--4-4-4-4--5-x-7-x-9-x-12-x-14-------------|
G|-9p0-12p0-2--2-2-2-2--5-x-7-x-9-x-12-x-14-------------|
D|----------2--2-2-2-2----------------------0-0-0-0-0-0-|
A|------------------------------------------0-0-0-0-0-0-|
D|------------------------------------------0-0-0-0-0-0-|


Riff 6:

L T L L...etc. S S L
C|--------------------------------------(12)----(5)-3p0-------|
C|--------------------------------------(12)----(5)-3p0h3p0h3-|
G|-0h3p0h3p0h3p0h3p03p0h3p0h3p0h3p0h3p0h3p0h3p0h3p0-----3p0h3-|
D|-0h3p0h3p0h3p0h3p03p0h3p0h3p0h3p0h3p0h3p0h3p0h3p0-----------|
A|-----3-------3-3-------p0-----------------------------------|
D|-----3-------3-3-------p0-----------------------------------|

S S
C|------------------------------------(12)----(5)--------|
C|------------------------------------(12)----(5)--------|
G|-3p0h3p0h3p0h3p03p0h3p0h3p0h3p0h3p0h3p0h3p0h3p0h3p0h3p0|
D|-3p0h3p0h3p0h3p03p0h3p0h3p0h3p0h3p0h3p0h3p0h3p0h3p0h3p0|
A|---3-------3-5-------p0--------------------------------|
D|---3-------3-5-------p0--------------------------------|


T * S S * S S
C|--------(12)----------------(12)-----------------(12)----|
C|--(12)--(12)---------(12)---(12)----------(12)---(12)----|
G|--(12)---------------(12)-----------------(12)-----------|
D|------------x--------------------x--0----------------x---|
A|3-----x-----x--5----------x------x--0---------x------x---|
D|3-----x--------5----------x---------0---------x----------|

* S S *S S * S S(
C|------(12)-----------------(12)--------(12)---------(12)-------(12)-----|
C|-(12)-(12)--------(12)-----(12)--------(12)---(12)--(12)-(12)--(12)-----|
G|-(12)-------0-----(12)-0----------------------(12)-------(12)-------(12)|
D|----------x-0----------0--x-----0-----x-----------x-----------x-----(12)|
A|-----x----x-0----x-----0--x-----0-----x-----x----3x-----x--5--x----x----|
D|-----x------0----x-----0--------0-----------x----3------x--5-------x----|


*S S *S S * S S
C|------(12)-----------------(12)------(12)--------(12)----0-0----------||
C|-(12)-(12)--------(12)-----(12)------(12)--(12)--(12)-0--0-0----------||
G|-(12)-------0-----(12)-0-------------------(12)-------0--0-0----------||
D|----------x-0----------0--x-----0--x------------x-----0--0-0----------||
A|-----x----x-0----x-----0--x-----0--x-----x------x-----0----0----------||
D|-----x------0----x-----0--------0--------x-----------------0----------||



:alatmusik3::alatmusik3::alatmusik3:
selamat mencoba..
Back to top Go down
View user profile
yuri
Newbie
Newbie


Jumlah posting : 135 Age : 24
Lokasi : BENGKULU

PostSubject: Re: Kaki King - Ritual Dance (tabulasi)   Fri Nov 19, 2010 12:15 pm

Akhnukh wrote:
cuma mau share nih... untuk yg hobi main gitar...
beberapa waktu yg lalu saya dapet tabulasi dari lagu Kaki king - Ritual dance yg menjadi soundtrack filem August Rust...




Tuning: DADGCC

/ or \ Slide
h Hammer on
p Pull off
~ vibrato
x mute (also used it for the drum part at the end)
T Right hand tapping |
L Left hand tapping | located above
S Slap above fretboard or soundhole | tablature staff
ss Slap below fretboard or soundhole |
( ) Natural harmonics
S and () Slap harmonics with right hand



Intro Riff:

Let ring-------------| Let ring--------------------| Let ring
S S
C|--(5)--------------------------(12)------------------------------(5)-|
C|--(5)--------------------------(12)------------------------------(5)-|
G|--(5)--------------------------(12)------------------------------(5)-|
D|--(5)--0h3-3-3-3/5-5-5-5-5p0---(12)--0-0-0h3-3-3-3/5-5-5-5-5p0---(5)-|
A|--(5)--0h3-3-3-3/5-5-5-5-5p0---(12)--0-0-0h3-3-3-3/5-5-5-5-5p0---(5)-|
D|--(5)--0h3-3-3-3/5-5-5-5-5p0---(12)--0-0-0h3-3-3-3/5-5-5-5-5p0---(5)-|


---------------------| Let ring----------|
S
C|------------------------------(12)---------------------------||
C|------------------------------(12)---------------------------||
G|------------------------------(12)--------------------0------||
D|--0-0-0h3-3-3-3/5-5-5-5-5p0---(12)--0-0-0h3-3-3-3/5-5-0------||
A|--0-0-0h3-3-3-3/5-5-5-5-5p0---(12)--0-0-0h3-3-3-3/5-5-0------||
D|--0-0-0h3-3-3-3/5-5-5-5-5p0---(12)--0-0-0h3-3-3-3/5-5-0------||


Riff 2 (play 2x):

Let ring ----------|
C||--2-2/5-5-5-/7-0-------x-0------------||
C||--2-2/5-5-5-/7-0-------2-0------------||
G||o-2-2/5-5-5-/7-0-------2-0-----------o|| x2
D||o--------------0-3-3-3-3-3-3--/5-0---o||
A||---------------0-3-3-3-3-3-3--/5-0----||
D||---------------0-3-3-3-3-3-3--/5-0----||


Let ring-----|
C|-9-9-12-12-x-x-4--4-4-4-4-------------0--0-0--2-------------||
C|-9-9-12-12-x-x-4--4-4-4-4-------------0--0-0--2-------------||
G|-9-9-12-12-x-x-2--2-2-2-2--0-7--7-7-7-7--0-0--2-------------||
D|---------------2--2-2-2-2--0-8--8-8-8-8---------0-0-0-0-0-0-||
A|---------------------------0-8--8-8-8-8---------0-0-0-0-0-0-||
D|---------------------------0-8--8-8-8-8---------0-0-0-0-0-0-||


Riff 3:


C||-5-x-4-x-2-x-0------------------------------x--------------|
C||-5-x-4-x-2-x-0--------------0---------------2----------2p0-|
G||-7-x-5-x-2-x-0-2--2-2-2p0-0-0---2-2-2-2p0-0-2--2-2-2-2-2p0-|
D||-------------3-3--3-3-3---3-3---3-3-3-3---3-3--0-0-0-0-0---|
A||-------------3-3--3-3-3---3-3---3-3-3-3---3-3--0-0-0-0-0---|
D||-------------3-3--3-3-3---3-3---3-3-3-3---3-3--0-0-0-0-0---|

Let ring-------------|
C|-5-x-4-x-2-x-0--------------------------------------------------------||
C|-5-x-4-x-2-x-0--------------0-----------------------------------------||
G|-7-x-5-x-2-x-0-2--2-2-2p0-0-0---2-2-2-2p0-0-2--2--/5~~~~/7~~~~--------||
D|-------------3-3--3-3-3---3-3---3-3-3-3---3-3--0-0-0-0-0-0-0-0-0-0-0--||
A|-------------3-3--3-3-3---3-3---3-3-3-3---3-3--0-0-0-0-0-0-0-0-0-0-0--||
D|-------------3-3--3-3-3---3-3---3-3-3-3---3-3--0-0-0-0-0-0-0-0-0-0-0--||


Riff 4:

Let ring------| Let ring-----|
C||-------------------0----------------------------0----------|
C||-------------------0----------------------------0----------|
G||-----------------------4---------------------------4-------|
D||-1-1-1-1-3-3-3-3-5---------5--1-1-1-1-3-3-3-3-5-------5----|
A||-1-1-1-1-3-3-3-3-5------------1-1-1-1-3-3-3-3-5------------|
D||-1-1-1-1-3-3-3-3-5------------1-1-1-1-3-3-3-3-5------------|


Let ring------|
C|-------------------0---------------0-0-0-0-0-0--||
C|-------------------0---------------0-0-0-0-0-0--||
G|-----------------------4-----------0-0-0-0-0-0--||
D|-1-1-1-1-3-3-3-3-5---------5---x-x-7-7-7-7-7-7--||
A|-1-1-1-1-3-3-3-3-5-------------x-x-7-7-7-7-7-7--||
D|-1-1-1-1-3-3-3-3-5-------------x-x-7-7-7-7-7-7--||


Riff 5 (Riff 2 modified/tapped):


Let ring----------------------------------------------------------

L T T L T L T ss L T T L T L T ss
C|--2p0-5p0-7p0--------------------2p0-5p0-7p0---------------------|
C|--2p0-5p0-7p0--------------------2p0-5p0-7p0---------------------|
G|--2p0-5p0-7p0--------------------2p0-5p0-7p0---------------------|
D|------------------7p0----------------------------7p0-------------|
A|-----------------------------------------------------------------|
D|--------------3p0-----7p0-12p0---------------3p0-----7p0-12p0----|


---------|

T T Let ring-----|
C|-9p0-12p0-4--4-4-4-4--5-x-4-x-2-x-0-x-2-------------|
C|-9p0-12p0-4--4-4-4-4--5-x-4-x-2-x-0-x-2-------------|
G|-9p0-12p0-2--2-2-2-2--7-x-5-x-2-x-0-x-2-------------|
D|----------2--2-2-2-2--------------------0-0-0-0-0-0-|
A|----------------------------------------0-0-0-0-0-0-|
D|----------------------------------------0-0-0-0-0-0-|


Let ring----------------------------------------------------------

L T T L T L T ss L T T L T L T ss
C|--2p0-5p0-7p0--------------------2p0-5p0-7p0---------------------|
C|--2p0-5p0-7p0--------------------2p0-5p0-7p0---------------------|
G|--2p0-5p0-7p0--------------------2p0-5p0-7p0---------------------|
D|------------------7p0----------------------------7p0-------------|
A|-----------------------------------------------------------------|
D|--------------3p0-----7p0-12p0---------------3p0-----7p0-12p0----|


---------|

T T Let ring-----|
C|-9p0-12p0-4--4-4-4-4--5-x-7-x-9-x-12-x-14-------------|
C|-9p0-12p0-4--4-4-4-4--5-x-7-x-9-x-12-x-14-------------|
G|-9p0-12p0-2--2-2-2-2--5-x-7-x-9-x-12-x-14-------------|
D|----------2--2-2-2-2----------------------0-0-0-0-0-0-|
A|------------------------------------------0-0-0-0-0-0-|
D|------------------------------------------0-0-0-0-0-0-|


Riff 6:

L T L L...etc. S S L
C|--------------------------------------(12)----(5)-3p0-------|
C|--------------------------------------(12)----(5)-3p0h3p0h3-|
G|-0h3p0h3p0h3p0h3p03p0h3p0h3p0h3p0h3p0h3p0h3p0h3p0-----3p0h3-|
D|-0h3p0h3p0h3p0h3p03p0h3p0h3p0h3p0h3p0h3p0h3p0h3p0-----------|
A|-----3-------3-3-------p0-----------------------------------|
D|-----3-------3-3-------p0-----------------------------------|

S S
C|------------------------------------(12)----(5)--------|
C|------------------------------------(12)----(5)--------|
G|-3p0h3p0h3p0h3p03p0h3p0h3p0h3p0h3p0h3p0h3p0h3p0h3p0h3p0|
D|-3p0h3p0h3p0h3p03p0h3p0h3p0h3p0h3p0h3p0h3p0h3p0h3p0h3p0|
A|---3-------3-5-------p0--------------------------------|
D|---3-------3-5-------p0--------------------------------|


T * S S * S S
C|--------(12)----------------(12)-----------------(12)----|
C|--(12)--(12)---------(12)---(12)----------(12)---(12)----|
G|--(12)---------------(12)-----------------(12)-----------|
D|------------x--------------------x--0----------------x---|
A|3-----x-----x--5----------x------x--0---------x------x---|
D|3-----x--------5----------x---------0---------x----------|

* S S *S S * S S(
C|------(12)-----------------(12)--------(12)---------(12)-------(12)-----|
C|-(12)-(12)--------(12)-----(12)--------(12)---(12)--(12)-(12)--(12)-----|
G|-(12)-------0-----(12)-0----------------------(12)-------(12)-------(12)|
D|----------x-0----------0--x-----0-----x-----------x-----------x-----(12)|
A|-----x----x-0----x-----0--x-----0-----x-----x----3x-----x--5--x----x----|
D|-----x------0----x-----0--------0-----------x----3------x--5-------x----|


*S S *S S * S S
C|------(12)-----------------(12)------(12)--------(12)----0-0----------||
C|-(12)-(12)--------(12)-----(12)------(12)--(12)--(12)-0--0-0----------||
G|-(12)-------0-----(12)-0-------------------(12)-------0--0-0----------||
D|----------x-0----------0--x-----0--x------------x-----0--0-0----------||
A|-----x----x-0----x-----0--x-----0--x-----x------x-----0----0----------||
D|-----x------0----x-----0--------0--------x-----------------0----------||




selamat mencoba..


I LIKE IT
Back to top Go down
View user profile
A+
Admin
Admin


Jumlah posting : 448 Age : 26
Lokasi : Bengkulu

PostSubject: Re: Kaki King - Ritual Dance (tabulasi)   Fri Nov 26, 2010 9:06 pm

Main Biola Cak Mano Kaka AKhnukh ?, :takut2: , La Lamo Ngidam Ndak Main Kan Nyo

_________________
Berapa Nilai Dari Kasih Dan Cinta ? , Kasih Dan Cinta Hanya Lah Nafsu Belaka

Berapa Nilai Dari Duka Dan Benci ? , Duka Dan Benci Hanya Lah Keluhan Manusia
Back to top Go down
View user profile http://ariakbarsyah.weebly.com
Akhnukh
Moderator
Moderator


Jumlah posting : 167 Age : 26
Lokasi : bengkulu

PostSubject: Re: Kaki King - Ritual Dance (tabulasi)   Sun Nov 28, 2010 12:41 am

A+ wrote:
Main Biola Cak Mano Kaka AKhnukh ?, :takut2: , La Lamo Ngidam Ndak Main Kan Nyo

:hah1: eeh..! biola..!
dak tau amb... amb jg pengen blajar main biola...
Back to top Go down
View user profile
Sponsored content




PostSubject: Re: Kaki King - Ritual Dance (tabulasi)   Today at 11:24 am

Back to top Go down
 
Kaki King - Ritual Dance (tabulasi)
View previous topic View next topic Back to top 
Page 1 of 1
 Similar topics
-
» WTS KAKI KAKI APRILIA RS 125 (SEPAKET VELG
» JUAL ===USD GSXR 600 taon 2009-2010===harga Kaki Lima
» king queen
» Kaki Kaki + Velg Tapak Lebar Buat Modif NINJA 250 ex Yamaha R6
» Jual Ninja 250R, Full modif kaki moge YAMAHA R1

Permissions in this forum:You cannot reply to topics in this forum
 :: Hobbies Di HIMATIF UNIB :: Just Music-
Jump to: